Make your own free website on Tripod.com
Your Logo
MiSCELLANEOUS
DD&HSW
interviews
index
theband
interview
lyrics
pictures
links
DD&HSW - "Miscellaneous" guitar tab

Chords used: D, Bm, C, A, F#m, E, G

D
It's work, lovelife, miscellaneous
Bm
That's all the extraneous
D_______________C__________A
Details you can't live without

Riff on C goes:
e---------------
B---------------
G------------0--
D------0--2-----
A-3-------------
E---------------

Then to an A chord:
e-----------
B--2--2--2--
G--2--1--0--
D--2--2--2--
A-----------
E-----------

It's up to you which way you face them
But make sure you don't forget one
Cos if you do you're gonna be found out without a
Shadow of a doubt

___F#m_____Bm
And when you finally find out
E
What this mess is all about
A
Won't you come 'round and let me know?

Well you can ask a stupid question, get a stupid answer
Are you the singer? No, I'm a dancer
People in glass houses seldom throw parties
And when you finally find out
What this mess is all about
Won't you come 'round and give me some of those extraneous

E
Deeeeetails
G___________D
I can't live without

Riff under "I can't live without":
e--2---0--2---2------2---0--2--0-----
B----3------3----------3----------3--
G------------------------------------
D------------------------------------
A------------------------------------
E------------------------------------

Followed by short solo, then:

E
Back to front, left to right
G_________________D
I could keep this up all night
E
Turn me upside down, inside out
G
_________________D
Can't you help me work this out?

_______________E
I love extraneous details
G
______________D
You can't live without


Written by Georgeson

all done by kindness